Asturias Leyenda Intro Tab – Isaac Albéniz | Easy Guitar Tabs

Advertisement

Asturias Leyenda Intro Tab – Isaac Albéniz

Asturias Leyenda Intro Tab – song and lyrics by Isaac Albéniz, Steve Eckels, Asturias Leyenda Isaac Albeniz Guitar Tab.

Asturias Leyenda Tab

 

[A1]
 
e|----0-----0-----0-----0-----0-----0--|----0-----0-----0-----0-----0-----0--|
B|-------------------------------------|-------------------------------------|
G|-------------------------------------|-------------------------------------|
D|-------2-----3-----0-----2-----------|-------2-----3-----0-----2-----------|
A|-0-----------------------------3-----|-0-----------------------------3-----|
E|-------------------------------------|-------------------------------------|
 
e|----0-----0-----0-----0-----0-----0--|----0-----0-----0-----0-----0-----0--|
B|-------------------------------------|-------------------------------------|
G|-------------------------------------|-------------------------------------|
D|-------2-----3-----0-----2-----------|-0-----------------0-----------------|
A|-0-----------------------------3-----|-------2-----3-----------2-----3-----|
E|-------------------------------------|-------------------------------------|
 
e|----0-----0-----0-----0-----0-----0--|----0-----0-----0-----0-----0-----0--|
B|-------------------------------------|-------------------------------------|
G|-------------------------------------|-------------------------------------|
D|-------2-----3-----0-----2-----------|-------2-----3-----0-----2-----------|
A|-0-----------------------------3-----|-0-----------------------------3-----|
E|-------------------------------------|-------------------------------------|
 
e|----0-----0-----0-----0-----0-----0--|----0-----0-----0-----0-----0-----0--|
B|-------------------------------------|-------------------------------------|
G|-------------------------------------|-------------------------------------|
D|-------2-----3-----0-----2-----------|-0-----------------------------------|
A|-0-----------------------------3-----|-------2-----3-----0-----------------|
E|-------------------------------------|-------------------------3-----1-----|
 
 
[B]
 
e|-0--------0-----0-----0-----0-----0--|----0-----0-----0-----0-----0-----0--|
B|-0-----------------------------------|-------------------------------------|
G|-1-----------------------------------|-------------------------------------|
D|-2-----2-----3-----0-----2-----------|-------2-----3-----0-----2-----------|
A|-2-----------------------------2-----|-------------------------------2-----|
E|-0-----------------------------------|-0-----------------------------------|
 
e|----0-----0-----0-----0-----0-----0--|----0-----0-----0-----0-----0-----0--|
B|-------------------------------------|-------------------------------------|
G|-------------------------------0-----|-------------------------------------|
D|-------------0-----2-----3-----------|-2-----3-----0-----2-----------------|
A|-------2-----------------------------|-------------------------3-----2-----|
E|-0-----------------------------------|-------------------------------------|
 
e|----0-----0-----0-----0-----0-----0--|----0-----0-----0-----0-----0-----0--|
B|-------------------------------------|-------------------------------------|
G|-------------------------------------|-------------------------------------|
D|-------2-----3-----0-----2-----------|-------2-----3-----0-----2-----------|
A|-------------------------------2-----|-------------------------------2-----|
E|-0-----------------------------------|-0-----------------------------------|
 
e|----0-----0-----0-----0-----0-----0--|----0-----0-----0-----0-----0-----0--|
B|-------------------------------------|-------------------------------------|
G|-------------------------0-----------|-------------------------------------|
D|-------0-----2-----3-----------2-----|-3-----0-----2-----------0-----------|
A|-------------------------------------|-------------------3-----------2-----|
E|-0-----------------------------------|-------------------------------------|
 
 
[A2]
 
e|-----0-----0-----0-----0-----0-----0-|-----0-----0-----0-----0-----0-----0-|
B|-------------------------------------|-------------------------------------|
G|---2-----2-----2-----2-----2-----2---|---2-----2-----2-----2-----2-----2---|
D|-------2-----3-----0-----2-----------|-------2-----3-----0-----2-----------|
A|-0-----------------------------3-----|-0-----------------------------3-----|
E|-------------------------------------|-------------------------------------|
 
e|-----0-----0-----0-----0-----0-----0-|-----0-----0-----0-----0-----0-----0-|
B|-------------------------------------|-------------------------------------|
G|---2-----2-----2-----2-----2-----2---|---2-----2-----2-----2-----2-----2---|
D|-------2-----3-----0-----2-----------|-0-----------------0-----------------|
A|-0-----------------------------3-----|-------2-----3-----------2-----3-----|
E|-------------------------------------|-------------------------------------|
 
e|-----0-----0-----0-----0-----0-----0-|-----0-----0-----0-----0-----0-----0-|
B|-------------------------------------|-------------------------------------|
G|---2-----2-----2-----2-----2-----2---|---2-----2-----2-----2-----2-----2---|
D|-------2-----3-----0-----2-----------|-------2-----3-----0-----2-----------|
A|-0-----------------------------3-----|-0-----------------------------3-----|
E|-------------------------------------|-------------------------------------|
 
e|-----0-----0-----0-----0-----0-----0-|-----0-----0-----0-----0-----0-----0-|
B|-------------------------------------|-------------------------------------|
G|---2-----2-----2-----2-----2-----2---|---2-----2-----2-----2-----2-----2---|
D|-------2-----3-----0-----2-----------|-0-----------------------------------|
A|-0-----------------------------3-----|-------2-----3-----0-----------------|
E|-------------------------------------|-------------------------3-----1-----|

Leave a Reply

%d bloggers like this: