I’m Your Puppet Bass Tabs – James & Bobby Purify | Easy Tabs

Advertisement

I’m Your Puppet Bass Tabs – James & Bobby Purify

I’m Your Puppet Bass Tabs is a song written by Dan Penn and Spooner Oldham; the best known version is the one recorded by James & Bobby Purify which reached #5 on the US R&B chart and #6 on the Billboard Hot 100 in 1966. The single was nominated for a Grammy Award for Best R&B Performance by a Duo or Group with Vocals in 1967. The song was featured on their 1967 album, James & Bobby Purify

I’m Your Puppet Tabs

 

Tuning: EADG
 
G|----------------------------------------------------------------|
D|--------------------------------0-------------------------------| x2
A|1---------------3-------------------------------3---------------|
E|----------------------------------------------------------------|
 
0:11
 
G|----------------------------------------------------------------|
D|--------------------------------0-------------------------------| x4
A|1---------------3-------------------------------3---------------|
E|----------------------------------------------------------------|
 
0:33
 
G|----------------------------------------------------------------|
D|0-----------0---0---------------1-----------1---1---------------|
A|----------------------------------------------------------------|
E|----------------------------------------------------------------|
 
G|----------------------------------------------------------------|
D|0-----------0---0---------------1-----------1---3---------------|
A|----------------------------------------------------------------|
E|--------------------------------------------------------1-------|
 
G|----------------------------------------------------------------|
D|--------------------------------0-------------------------------|
A|1---------------3-------------------------------3---------------|
E|------------------------------------------------------------1---|
 
0:49
 
G|----------------------------------------------------------------|
D|--------------------------------0-----------0-------------------| x4
A|1-----------1---3-------------------------------3---------------|
E|----------------------------------------------------------------|
 
1:11
 
G|----------------------------------------------------------------|
D|0-----------0---0-----------0---1-----------1---1---------------|
A|----------------------------------------------------------------|
E|----------------------------------------------------------------|
 
G|----------------------------------------------------------------|
D|0-----------0---0---------------1-----------1---3---------------|
A|----------------------------------------------------------------|
E|--------------------------------------------------------1-------|
 
G|----------------------------------------------------------------|
D|--------------------------------0-----------0-------------------|
A|1-----------1---3-------------------------------3---------------|
E|----------------------------------------------------------------|
 
G|----------------------------------------------------------------|
D|--------------------------------0-----------0-------------------|
A|1-----------1---3-------------------------------3-----------3---|
E|----------------------------------------------------------------|
 
1:33
 
G|----------------------------------------------------------------|
D|3---------------3-----------3-0-1---------------1-----------1---|
A|----------------------------------------------------------------|
E|----------------------------------------------------------------|
 
G|----------------------------------------------------------------|
D|0---------------0-----------0-----------------------------------|
A|--------------------------------3---------------3-------3-1-0---|
E|---------------------------------------------------------------3-|
 
G|----------------------------------------------------------------|
D|--------------------------0-3---1---------------1-----------1---|
A|----------------------------------------------------------------|
E|1---------------1-----------------------------------------------|
 
G|----------------------------------------------------------------|
D|0---------------0-----------0-----------------------------------|
A|--------------------------------3-------------------------------|
E|------------------------------------------------1---------------|
 
G|----------------------------------------------------------------|
D|--------------------------------0-----------0-------------------| x2
A|1---------------3-------------------------------3---------------|
E|----------------------------------------------------------------|
 
2:06
 
G|----------------------------------------------------------------|.
D|--------------------------------0-------------------------------|.
A|1---------------3-----------3-------------------3---------------|.
E|----------------------------------------------------------------|.
                                                                   . x2
G|----------------------------------------------------------------|.
D|--------------------------------0-----------0-------------------|.
A|1-----------1---3-------------------------------3---------------|.
E|----------------------------------------------------------------|.
 
2:28
 
G|----------------------------------------------------------------|
D|0---------------0-----------0---1---------------1-----------1h3-|
A|----------------------------------------------------------------|
E|----------------------------------------------------------------|
 
G|----------------------------------------------------------------|
D|0---------------0---------------1-----------1---3-------3-------|
A|----------------------------------------------------------------|
E|----------------------------------------------------------------|
 
G|----------------------------------------------------------------|
D|--------------------------------0-----------0-------------------|
A|1---------------3-------------------------------3-------3-------|
E|----------------------------------------------------------------|
 
G|----------------------------------------------------------------|
D|--------------------------------0-----------0-------------------|
A|1-----------1---3-------------------------------3---------------|
E|----------------------------------------------------------------|
 
2:50 Until fadeout.
 
G|----------------------------------------------------------------|
D|--------------------------------0-----------0-------------------|
A|1-----------1---3-------------------------------3---------------|
E|----------------------------------------------------------------|
 
G|----------------------------------------------------------------|
D|--------------------------------0-----------0-------------------|
A|1-----------1---3--------------------------------3-------3-------|
E|--------------------------------------------------------------1-|
 
G|----------------------------------------------------------------|
D|--------------------------------0-----------0-------------------|
A|1-----------1---3--------------------------------3---------------|
E|------------------------------------------------------------1---|


Tabs Of I'm Your Puppet
Thanks For Visit Gchord.in

Leave a Reply

%d bloggers like this: